  0
SECTION
  2
HEADER
  9
$ACADVER
  1
AC1009
  9
$INSBASE
 10
72.59869841414126
 20
-1223.541675152627
 30
0.0
  9
$EXTMIN
 10
71.77027128939575
 20
-1224.370102277373
 30
0.0
  9
$EXTMAX
 10
3450.212975075087
 20
1188.023846273534
 30
0.0
  9
$LIMMIN
 10
0.0
 20
0.0
  9
$LIMMAX
 10
420.0
 20
297.0
  9
$ORTHOMODE
 70
     0
  9
$REGENMODE
 70
     1
  9
$FILLMODE
 70
     1
  9
$QTEXTMODE
 70
     0
  9
$MIRRTEXT
 70
     0
  9
$DRAGMODE
 70
     2
  9
$LTSCALE
 40
1.0
  9
$OSMODE
 70
     0
  9
$ATTMODE
 70
     1
  9
$TEXTSIZE
 40
3.5
  9
$TRACEWID
 40
0.05
  9
$TEXTSTYLE
  7
STANDARD
  9
$CLAYER
  8
0
  9
$CELTYPE
  6
BYLAYER
  9
$CECOLOR
 62
   256
  9
$DIMSCALE
 40
1.0
  9
$DIMASZ
 40
2.5
  9
$DIMEXO
 40
1.0
  9
$DIMDLI
 40
8.0
  9
$DIMRND
 40
0.0
  9
$DIMDLE
 40
0.0
  9
$DIMEXE
 40
2.0
  9
$DIMTP
 40
0.1
  9
$DIMTM
 40
0.1
  9
$DIMTXT
 40
3.5
  9
$DIMCEN
 40
2.0
  9
$DIMTSZ
 40
0.0
  9
$DIMTOL
 70
     0
  9
$DIMLIM
 70
     0
  9
$DIMTIH
 70
     0
  9
$DIMTOH
 70
     0
  9
$DIMSE1
 70
     0
  9
$DIMSE2
 70
     0
  9
$DIMTAD
 70
     1
  9
$DIMZIN
 70
     8
  9
$DIMBLK
  1

  9
$DIMASO
 70
     0
  9
$DIMSHO
 70
     0
  9
$DIMPOST
  1

  9
$DIMAPOST
  1

  9
$DIMALT
 70
     0
  9
$DIMALTD
 70
     2
  9
$DIMALTF
 40
25.39999999999999
  9
$DIMLFAC
 40
1.0
  9
$DIMTOFL
 70
     1
  9
$DIMTVP
 40
0.0
  9
$DIMTIX
 70
     0
  9
$DIMSOXD
 70
     0
  9
$DIMSAH
 70
     0
  9
$DIMBLK1
  1

  9
$DIMBLK2
  1

  9
$DIMSTYLE
  2
*UNNAMED
  9
$DIMCLRD
 70
     0
  9
$DIMCLRE
 70
     0
  9
$DIMCLRT
 70
     0
  9
$DIMTFAC
 40
1.0
  9
$DIMGAP
 40
0.09
  9
$LUNITS
 70
     2
  9
$LUPREC
 70
     3
  9
$SKETCHINC
 40
0.1
  9
$FILLETRAD
 40
20.0
  9
$AUNITS
 70
     0
  9
$AUPREC
 70
     3
  9
$MENU
  1

  9
$ELEVATION
 40
0.0
  9
$PELEVATION
 40
0.0
  9
$THICKNESS
 40
0.0
  9
$LIMCHECK
 70
     0
  9
$BLIPMODE
 70
     0
  9
$CHAMFERA
 40
0.0
  9
$CHAMFERB
 40
0.0
  9
$SKPOLY
 70
     1
  9
$TDCREATE
 40
2448785.485012384
  9
$TDUPDATE
 40
2449393.436062615
  9
$TDINDWG
 40
0.0018004630
  9
$TDUSRTIMER
 40
0.0018004630
  9
$USRTIMER
 70
     1
  9
$ANGBASE
 50
0.0
  9
$ANGDIR
 70
     0
  9
$PDMODE
 70
     3
  9
$PDSIZE
 40
2.0
  9
$PLINEWID
 40
0.0
  9
$COORDS
 70
     2
  9
$SPLFRAME
 70
     0
  9
$SPLINETYPE
 70
     6
  9
$SPLINESEGS
 70
     8
  9
$ATTDIA
 70
     1
  9
$ATTREQ
 70
     1
  9
$HANDLING
 70
     0
  9
$HANDSEED
  5
282
  9
$SURFTAB1
 70
     6
  9
$SURFTAB2
 70
     6
  9
$SURFTYPE
 70
     6
  9
$SURFU
 70
     6
  9
$SURFV
 70
     6
  9
$UCSNAME
  2

  9
$UCSORG
 10
0.0
 20
0.0
 30
0.0
  9
$UCSXDIR
 10
1.0
 20
0.0
 30
0.0
  9
$UCSYDIR
 10
0.0
 20
1.0
 30
0.0
  9
$PUCSNAME
  2

  9
$PUCSORG
 10
0.0
 20
0.0
 30
0.0
  9
$PUCSXDIR
 10
1.0
 20
0.0
 30
0.0
  9
$PUCSYDIR
 10
0.0
 20
1.0
 30
0.0
  9
$USERI1
 70
     0
  9
$USERI2
 70
     3
  9
$USERI3
 70
    15
  9
$USERI4
 70
     0
  9
$USERI5
 70
     0
  9
$USERR1
 40
0.0
  9
$USERR2
 40
1.0
  9
$USERR3
 40
0.0
  9
$USERR4
 40
1.0
  9
$USERR5
 40
0.0
  9
$WORLDVIEW
 70
     1
  9
$SHADEDGE
 70
     3
  9
$SHADEDIF
 70
    70
  9
$TILEMODE
 70
     1
  9
$MAXACTVP
 70
    16
  9
$PINSBASE
 10
0.0
 20
0.0
 30
0.0
  9
$PLIMCHECK
 70
     0
  9
$PEXTMIN
 10
1.000000000000000E+20
 20
1.000000000000000E+20
 30
1.000000000000000E+20
  9
$PEXTMAX
 10
-1.000000000000000E+20
 20
-1.000000000000000E+20
 30
-1.000000000000000E+20
  9
$PLIMMIN
 10
0.0
 20
0.0
  9
$PLIMMAX
 10
12.0
 20
9.0
  9
$UNITMODE
 70
     0
  9
$VISRETAIN
 70
     0
  9
$PLINEGEN
 70
     0
  9
$PSLTSCALE
 70
     0
  9
$TREEDEPTH
 70
  3020
  9
$DWGCODEPAGE
  3
undefined
  0
ENDSEC
  0
SECTION
  2
TABLES
  0
TABLE
  2
VPORT
 70
     2
  0
VPORT
  2
*ACTIVE
 70
     0
 10
0.0
 20
0.0
 11
1.0
 21
1.0
 12
1760.784516401072
 22
99.82432623543377
 13
0.0
 23
0.0
 14
7.0
 24
7.0
 15
0.0
 25
0.0
 16
0.0
 26
0.0
 36
1.0
 17
0.0
 27
0.0
 37
0.0
 40
2646.732002776121
 41
1.275675675675675
 42
50.0
 43
0.0
 44
0.0
 50
0.0
 51
0.0
 71
     0
 72
 10000
 73
     1
 74
     0
 75
     0
 76
     0
 77
     0
 78
     0
  0
ENDTAB
  0
TABLE
  2
LTYPE
 70
     1
  0
LTYPE
  2
AUSGEZOGEN
 70
    64
  3
Solid line
 72
    65
 73
     0
 40
0.0
  0
ENDTAB
  0
TABLE
  2
LAYER
 70
     3
  0
LAYER
  2
0
 70
     0
 62
     7
  6
AUSGEZOGEN
  0
LAYER
  2
ITEM_50
 70
    64
 62
     7
  6
AUSGEZOGEN
  0
LAYER
  2
ITEM_25
 70
    64
 62
     3
  6
AUSGEZOGEN
  0
ENDTAB
  0
TABLE
  2
STYLE
 70
     1
  0
STYLE
  2
STANDARD
 70
     0
 40
0.0
 41
1.0
 50
0.0
 71
     0
 42
3.5
  3
iso
  4

  0
ENDTAB
  0
TABLE
  2
VIEW
 70
     0
  0
ENDTAB
  0
TABLE
  2
UCS
 70
     0
  0
ENDTAB
  0
TABLE
  2
APPID
 70
     1
  0
APPID
  2
ACAD
 70
    64
  0
ENDTAB
  0
TABLE
  2
DIMSTYLE
 70
     0
  0
ENDTAB
  0
ENDSEC
  0
SECTION
  2
BLOCKS
  0
ENDSEC
  0
SECTION
  2
ENTITIES
  0
ARC
  8
ITEM_50
 10
115.8195082960804
 20
272.5921374292304
 30
0.0
 40
40.0
 50
137.5879537735035
 51
42.41204622591515
  0
ARC
  8
ITEM_50
 10
115.8195082960804
 20
272.5921374292304
 30
0.0
 40
20.0
 50
197.5879537738424
 51
342.4120462252611
  0
LINE
  8
ITEM_50
 10
75.8195082964124
 20
332.5921374292307
 30
0.0
 11
96.75442391854343
 21
266.5487478442537
 31
0.0
  0
LINE
  8
ITEM_50
 10
155.8195082961541
 20
332.5921374292304
 30
0.0
 11
134.8845926735365
 21
266.5487478439511
 31
0.0
  0
CIRCLE
  8
ITEM_50
 10
115.8195082960804
 20
272.5921374292304
 30
0.0
 40
10.0
  0
CIRCLE
  8
ITEM_50
 10
1995.81950829608
 20
272.5921374292304
 30
0.0
 40
10.0
  0
LINE
  8
ITEM_50
 10
2035.819508296153
 20
332.5921374292304
 30
0.0
 11
2014.884592673536
 21
266.5487478439511
 31
0.0
  0
LINE
  8
ITEM_50
 10
1955.819508296412
 20
332.5921374292307
 30
0.0
 11
1976.754423918543
 21
266.5487478442537
 31
0.0
  0
ARC
  8
ITEM_50
 10
1995.81950829608
 20
272.5921374292304
 30
0.0
 40
20.0
 50
197.5879537738424
 51
342.4120462252611
  0
ARC
  8
ITEM_50
 10
1995.81950829608
 20
272.5921374292304
 30
0.0
 40
40.0
 50
137.5879537735035
 51
42.41204622591515
  0
LINE
  8
ITEM_50
 10
1785.819508296045
 20
1132.59213742923
 30
0.0
 11
1785.819508296052
 21
1136.59213742923
 31
0.0
  0
LINE
  8
ITEM_50
 10
1743.819508296045
 20
1132.59213742923
 30
0.0
 11
1785.819508296045
 21
1132.59213742923
 31
0.0
  0
LINE
  8
ITEM_50
 10
1743.819508296045
 20
1172.59213742923
 30
0.0
 11
1743.819508296045
 21
1132.59213742923
 31
0.0
  0
LINE
  8
ITEM_50
 10
1785.819508296052
 20
1172.59213742923
 30
0.0
 11
1743.819508296045
 21
1172.59213742923
 31
0.0
  0
LINE
  8
ITEM_50
 10
1785.819508296052
 20
1168.59213742923
 30
0.0
 11
1747.819508296045
 21
1168.59213742923
 31
0.0
  0
LINE
  8
ITEM_50
 10
1747.819508296045
 20
1168.59213742923
 30
0.0
 11
1747.819508296045
 21
1136.59213742923
 31
0.0
  0
LINE
  8
ITEM_50
 10
1747.819508296045
 20
1136.59213742923
 30
0.0
 11
1785.819508296052
 21
1136.59213742923
 31
0.0
  0
LINE
  8
ITEM_50
 10
1785.819508296052
 20
1172.59213742923
 30
0.0
 11
1785.819508296052
 21
1168.59213742923
 31
0.0
  0
LINE
  8
ITEM_50
 10
1825.819508296108
 20
1172.59213742923
 30
0.0
 11
1825.819508296108
 21
1168.59213742923
 31
0.0
  0
LINE
  8
ITEM_50
 10
1863.819508296116
 20
1136.59213742923
 30
0.0
 11
1825.819508296108
 21
1136.59213742923
 31
0.0
  0
LINE
  8
ITEM_50
 10
1863.819508296116
 20
1168.59213742923
 30
0.0
 11
1863.819508296116
 21
1136.59213742923
 31
0.0
  0
LINE
  8
ITEM_50
 10
1825.819508296108
 20
1168.59213742923
 30
0.0
 11
1863.819508296116
 21
1168.59213742923
 31
0.0
  0
LINE
  8
ITEM_50
 10
1825.819508296108
 20
1172.59213742923
 30
0.0
 11
1867.819508296116
 21
1172.59213742923
 31
0.0
  0
LINE
  8
ITEM_50
 10
1867.819508296116
 20
1172.59213742923
 30
0.0
 11
1867.819508296116
 21
1132.59213742923
 31
0.0
  0
LINE
  8
ITEM_50
 10
1867.819508296116
 20
1132.59213742923
 30
0.0
 11
1825.819508296116
 21
1132.59213742923
 31
0.0
  0
LINE
  8
ITEM_50
 10
1825.819508296116
 20
1132.59213742923
 30
0.0
 11
1825.819508296108
 21
1136.59213742923
 31
0.0
  0
LINE
  8
ITEM_50
 10
1485.819508296045
 20
1132.59213742923
 30
0.0
 11
1485.819508296052
 21
1136.59213742923
 31
0.0
  0
LINE
  8
ITEM_50
 10
1443.819508296045
 20
1132.59213742923
 30
0.0
 11
1485.819508296045
 21
1132.59213742923
 31
0.0
  0
LINE
  8
ITEM_50
 10
1443.819508296045
 20
1172.59213742923
 30
0.0
 11
1443.819508296045
 21
1132.59213742923
 31
0.0
  0
LINE
  8
ITEM_50
 10
1485.819508296052
 20
1172.59213742923
 30
0.0
 11
1443.819508296045
 21
1172.59213742923
 31
0.0
  0
LINE
  8
ITEM_50
 10
1485.819508296052
 20
1168.59213742923
 30
0.0
 11
1447.819508296045
 21
1168.59213742923
 31
0.0
  0
LINE
  8
ITEM_50
 10
1447.819508296045
 20
1168.59213742923
 30
0.0
 11
1447.819508296045
 21
1136.59213742923
 31
0.0
  0
LINE
  8
ITEM_50
 10
1447.819508296045
 20
1136.59213742923
 30
0.0
 11
1485.819508296052
 21
1136.59213742923
 31
0.0
  0
LINE
  8
ITEM_50
 10
1485.819508296052
 20
1172.59213742923
 30
0.0
 11
1485.819508296052
 21
1168.59213742923
 31
0.0
  0
LINE
  8
ITEM_50
 10
1525.819508296108
 20
1172.59213742923
 30
0.0
 11
1525.819508296108
 21
1168.59213742923
 31
0.0
  0
LINE
  8
ITEM_50
 10
1563.819508296116
 20
1136.59213742923
 30
0.0
 11
1525.819508296108
 21
1136.59213742923
 31
0.0
  0
LINE
  8
ITEM_50
 10
1563.819508296116
 20
1168.59213742923
 30
0.0
 11
1563.819508296116
 21
1136.59213742923
 31
0.0
  0
LINE
  8
ITEM_50
 10
1525.819508296108
 20
1168.59213742923
 30
0.0
 11
1563.819508296116
 21
1168.59213742923
 31
0.0
  0
LINE
  8
ITEM_50
 10
1525.819508296108
 20
1172.59213742923
 30
0.0
 11
1567.819508296116
 21
1172.59213742923
 31
0.0
  0
LINE
  8
ITEM_50
 10
1567.819508296116
 20
1172.59213742923
 30
0.0
 11
1567.819508296116
 21
1132.59213742923
 31
0.0
  0
LINE
  8
ITEM_50
 10
1567.819508296116
 20
1132.59213742923
 30
0.0
 11
1525.819508296116
 21
1132.59213742923
 31
0.0
  0
LINE
  8
ITEM_50
 10
1525.819508296116
 20
1132.59213742923
 30
0.0
 11
1525.819508296108
 21
1136.59213742923
 31
0.0
  0
LINE
  8
ITEM_50
 10
1185.819508296045
 20
1132.59213742923
 30
0.0
 11
1185.819508296052
 21
1136.59213742923
 31
0.0
  0
LINE
  8
ITEM_50
 10
1143.819508296045
 20
1132.59213742923
 30
0.0
 11
1185.819508296045
 21
1132.59213742923
 31
0.0
  0
LINE
  8
ITEM_50
 10
1143.819508296045
 20
1172.59213742923
 30
0.0
 11
1143.819508296045
 21
1132.59213742923
 31
0.0
  0
LINE
  8
ITEM_50
 10
1185.819508296052
 20
1172.59213742923
 30
0.0
 11
1143.819508296045
 21
1172.59213742923
 31
0.0
  0
LINE
  8
ITEM_50
 10
1185.819508296052
 20
1168.59213742923
 30
0.0
 11
1147.819508296045
 21
1168.59213742923
 31
0.0
  0
LINE
  8
ITEM_50
 10
1147.819508296045
 20
1168.59213742923
 30
0.0
 11
1147.819508296045
 21
1136.59213742923
 31
0.0
  0
LINE
  8
ITEM_50
 10
1147.819508296045
 20
1136.59213742923
 30
0.0
 11
1185.819508296052
 21
1136.59213742923
 31
0.0
  0
LINE
  8
ITEM_50
 10
1185.819508296052
 20
1172.59213742923
 30
0.0
 11
1185.819508296052
 21
1168.59213742923
 31
0.0
  0
LINE
  8
ITEM_50
 10
1225.819508296108
 20
1172.59213742923
 30
0.0
 11
1225.819508296108
 21
1168.59213742923
 31
0.0
  0
LINE
  8
ITEM_50
 10
1263.819508296116
 20
1136.59213742923
 30
0.0
 11
1225.819508296108
 21
1136.59213742923
 31
0.0
  0
LINE
  8
ITEM_50
 10
1263.819508296116
 20
1168.59213742923
 30
0.0
 11
1263.819508296116
 21
1136.59213742923
 31
0.0
  0
LINE
  8
ITEM_50
 10
1225.819508296108
 20
1168.59213742923
 30
0.0
 11
1263.819508296116
 21
1168.59213742923
 31
0.0
  0
LINE
  8
ITEM_50
 10
1225.819508296108
 20
1172.59213742923
 30
0.0
 11
1267.819508296116
 21
1172.59213742923
 31
0.0
  0
LINE
  8
ITEM_50
 10
1267.819508296116
 20
1172.59213742923
 30
0.0
 11
1267.819508296116
 21
1132.59213742923
 31
0.0
  0
LINE
  8
ITEM_50
 10
1267.819508296116
 20
1132.59213742923
 30
0.0
 11
1225.819508296116
 21
1132.59213742923
 31
0.0
  0
LINE
  8
ITEM_50
 10
1225.819508296116
 20
1132.59213742923
 30
0.0
 11
1225.819508296108
 21
1136.59213742923
 31
0.0
  0
LINE
  8
ITEM_50
 10
885.8195082960448
 20
1132.59213742923
 30
0.0
 11
885.8195082960523
 21
1136.59213742923
 31
0.0
  0
LINE
  8
ITEM_50
 10
843.8195082960448
 20
1132.59213742923
 30
0.0
 11
885.8195082960448
 21
1132.59213742923
 31
0.0
  0
LINE
  8
ITEM_50
 10
843.8195082960448
 20
1172.59213742923
 30
0.0
 11
843.8195082960448
 21
1132.59213742923
 31
0.0
  0
LINE
  8
ITEM_50
 10
885.8195082960523
 20
1172.59213742923
 30
0.0
 11
843.8195082960448
 21
1172.59213742923
 31
0.0
  0
LINE
  8
ITEM_50
 10
885.8195082960523
 20
1168.59213742923
 30
0.0
 11
847.8195082960448
 21
1168.59213742923
 31
0.0
  0
LINE
  8
ITEM_50
 10
847.8195082960448
 20
1168.59213742923
 30
0.0
 11
847.8195082960448
 21
1136.59213742923
 31
0.0
  0
LINE
  8
ITEM_50
 10
847.8195082960448
 20
1136.59213742923
 30
0.0
 11
885.8195082960523
 21
1136.59213742923
 31
0.0
  0
LINE
  8
ITEM_50
 10
885.8195082960523
 20
1172.59213742923
 30
0.0
 11
885.8195082960523
 21
1168.59213742923
 31
0.0
  0
LINE
  8
ITEM_50
 10
925.8195082961084
 20
1172.59213742923
 30
0.0
 11
925.8195082961084
 21
1168.59213742923
 31
0.0
  0
LINE
  8
ITEM_50
 10
963.8195082961158
 20
1136.59213742923
 30
0.0
 11
925.8195082961084
 21
1136.59213742923
 31
0.0
  0
LINE
  8
ITEM_50
 10
963.8195082961158
 20
1168.59213742923
 30
0.0
 11
963.8195082961158
 21
1136.59213742923
 31
0.0
  0
LINE
  8
ITEM_50
 10
925.8195082961084
 20
1168.59213742923
 30
0.0
 11
963.8195082961158
 21
1168.59213742923
 31
0.0
  0
LINE
  8
ITEM_50
 10
925.8195082961084
 20
1172.59213742923
 30
0.0
 11
967.8195082961158
 21
1172.59213742923
 31
0.0
  0
LINE
  8
ITEM_50
 10
967.8195082961158
 20
1172.59213742923
 30
0.0
 11
967.8195082961158
 21
1132.59213742923
 31
0.0
  0
LINE
  8
ITEM_50
 10
967.8195082961158
 20
1132.59213742923
 30
0.0
 11
925.8195082961159
 21
1132.59213742923
 31
0.0
  0
LINE
  8
ITEM_50
 10
925.8195082961159
 20
1132.59213742923
 30
0.0
 11
925.8195082961084
 21
1136.59213742923
 31
0.0
  0
LINE
  8
ITEM_50
 10
585.8195082960448
 20
1132.59213742923
 30
0.0
 11
585.8195082960523
 21
1136.59213742923
 31
0.0
  0
LINE
  8
ITEM_50
 10
543.8195082960448
 20
1132.59213742923
 30
0.0
 11
585.8195082960448
 21
1132.59213742923
 31
0.0
  0
LINE
  8
ITEM_50
 10
543.8195082960448
 20
1172.59213742923
 30
0.0
 11
543.8195082960448
 21
1132.59213742923
 31
0.0
  0
LINE
  8
ITEM_50
 10
585.8195082960523
 20
1172.59213742923
 30
0.0
 11
543.8195082960448
 21
1172.59213742923
 31
0.0
  0
LINE
  8
ITEM_50
 10
585.8195082960523
 20
1168.59213742923
 30
0.0
 11
547.8195082960448
 21
1168.59213742923
 31
0.0
  0
LINE
  8
ITEM_50
 10
547.8195082960448
 20
1168.59213742923
 30
0.0
 11
547.8195082960448
 21
1136.59213742923
 31
0.0
  0
LINE
  8
ITEM_50
 10
547.8195082960448
 20
1136.59213742923
 30
0.0
 11
585.8195082960523
 21
1136.59213742923
 31
0.0
  0
LINE
  8
ITEM_50
 10
585.8195082960523
 20
1172.59213742923
 30
0.0
 11
585.8195082960523
 21
1168.59213742923
 31
0.0
  0
LINE
  8
ITEM_50
 10
625.8195082961084
 20
1172.59213742923
 30
0.0
 11
625.8195082961084
 21
1168.59213742923
 31
0.0
  0
LINE
  8
ITEM_50
 10
663.8195082961158
 20
1136.59213742923
 30
0.0
 11
625.8195082961084
 21
1136.59213742923
 31
0.0
  0
LINE
  8
ITEM_50
 10
663.8195082961158
 20
1168.59213742923
 30
0.0
 11
663.8195082961158
 21
1136.59213742923
 31
0.0
  0
LINE
  8
ITEM_50
 10
625.8195082961084
 20
1168.59213742923
 30
0.0
 11
663.8195082961158
 21
1168.59213742923
 31
0.0
  0
LINE
  8
ITEM_50
 10
625.8195082961084
 20
1172.59213742923
 30
0.0
 11
667.8195082961158
 21
1172.59213742923
 31
0.0
  0
LINE
  8
ITEM_50
 10
667.8195082961158
 20
1172.59213742923
 30
0.0
 11
667.8195082961158
 21
1132.59213742923
 31
0.0
  0
LINE
  8
ITEM_50
 10
667.8195082961158
 20
1132.59213742923
 30
0.0
 11
625.8195082961159
 21
1132.59213742923
 31
0.0
  0
LINE
  8
ITEM_50
 10
625.8195082961159
 20
1132.59213742923
 30
0.0
 11
625.8195082961084
 21
1136.59213742923
 31
0.0
  0
LINE
  8
ITEM_50
 10
325.8195082961158
 20
1132.59213742923
 30
0.0
 11
325.8195082961083
 21
1136.59213742923
 31
0.0
  0
LINE
  8
ITEM_50
 10
367.8195082961158
 20
1132.59213742923
 30
0.0
 11
325.8195082961158
 21
1132.59213742923
 31
0.0
  0
LINE
  8
ITEM_50
 10
367.8195082961158
 20
1172.59213742923
 30
0.0
 11
367.8195082961158
 21
1132.59213742923
 31
0.0
  0
LINE
  8
ITEM_50
 10
325.8195082961083
 20
1172.59213742923
 30
0.0
 11
367.8195082961158
 21
1172.59213742923
 31
0.0
  0
LINE
  8
ITEM_50
 10
325.8195082961083
 20
1168.59213742923
 30
0.0
 11
363.8195082961158
 21
1168.59213742923
 31
0.0
  0
LINE
  8
ITEM_50
 10
363.8195082961158
 20
1168.59213742923
 30
0.0
 11
363.8195082961158
 21
1136.59213742923
 31
0.0
  0
LINE
  8
ITEM_50
 10
363.8195082961158
 20
1136.59213742923
 30
0.0
 11
325.8195082961083
 21
1136.59213742923
 31
0.0
  0
LINE
  8
ITEM_50
 10
325.8195082961083
 20
1172.59213742923
 30
0.0
 11
325.8195082961083
 21
1168.59213742923
 31
0.0
  0
LINE
  8
ITEM_50
 10
285.8195082960523
 20
1172.59213742923
 30
0.0
 11
285.8195082960523
 21
1168.59213742923
 31
0.0
  0
LINE
  8
ITEM_50
 10
247.8195082960448
 20
1136.59213742923
 30
0.0
 11
285.8195082960523
 21
1136.59213742923
 31
0.0
  0
LINE
  8
ITEM_50
 10
247.8195082960448
 20
1168.59213742923
 30
0.0
 11
247.8195082960448
 21
1136.59213742923
 31
0.0
  0
LINE
  8
ITEM_50
 10
285.8195082960523
 20
1168.59213742923
 30
0.0
 11
247.8195082960448
 21
1168.59213742923
 31
0.0
  0
LINE
  8
ITEM_50
 10
285.8195082960523
 20
1172.59213742923
 30
0.0
 11
243.8195082960448
 21
1172.59213742923
 31
0.0
  0
LINE
  8
ITEM_50
 10
243.8195082960448
 20
1172.59213742923
 30
0.0
 11
243.8195082960448
 21
1132.59213742923
 31
0.0
  0
LINE
  8
ITEM_50
 10
243.8195082960448
 20
1132.59213742923
 30
0.0
 11
285.8195082960448
 21
1132.59213742923
 31
0.0
  0
LINE
  8
ITEM_50
 10
285.8195082960448
 20
1132.59213742923
 30
0.0
 11
285.8195082960523
 21
1136.59213742923
 31
0.0
  0
LINE
  8
ITEM_50
 10
3416.470334387969
 20
268.0238462735579
 30
0.0
 11
3414.970334388004
 21
268.0238462735579
 31
0.0
  0
LINE
  8
ITEM_50
 10
3408.970334388004
 20
274.0238462735579
 30
0.0
 11
3408.970334388004
 21
348.02384627357
 31
0.0
  0
LINE
  8
ITEM_50
 10
3448.970334387968
 20
348.02384627357
 30
0.0
 11
3448.970334387968
 21
274.0238462735577
 31
0.0
  0
LINE
  8
ITEM_50
 10
3442.970334387968
 20
268.0238462735577
 30
0.0
 11
3441.470334387969
 21
268.0238462735579
 31
0.0
  0
LINE
  8
ITEM_50
 10
3416.470334387968
 20
322.02384627357
 30
0.0
 11
3416.470334387968
 21
334.0238462735702
 31
0.0
  0
LINE
  8
ITEM_50
 10
3422.470334387968
 20
340.0238462735702
 30
0.0
 11
3435.470334387968
 21
340.0238462735702
 31
0.0
  0
LINE
  8
ITEM_50
 10
3441.470334387968
 20
334.0238462735702
 30
0.0
 11
3441.470334387968
 21
322.02384627357
 31
0.0
  0
ARC
  8
ITEM_50
 10
3414.970334388004
 20
274.0238462735579
 30
0.0
 40
6.0
 50
180.0
 51
270.0000000000017
  0
ARC
  8
ITEM_50
 10
3442.970334387968
 20
274.0238462735577
 30
0.0
 40
6.0
 50
270.0
 51
0.0
  0
ARC
  8
ITEM_50
 10
3435.470334387968
 20
334.0238462735702
 30
0.0
 40
6.0
 50
0.0
 51
90.0
  0
ARC
  8
ITEM_50
 10
3422.470334387968
 20
334.0238462735702
 30
0.0
 40
6.0
 50
90.0
 51
180.0
  0
ARC
  8
ITEM_50
 10
2662.470334387968
 20
334.0238462735702
 30
0.0
 40
6.0
 50
90.0
 51
180.0
  0
ARC
  8
ITEM_50
 10
2675.470334387968
 20
334.0238462735702
 30
0.0
 40
6.0
 50
0.0
 51
90.0
  0
ARC
  8
ITEM_50
 10
2682.970334387968
 20
274.0238462735577
 30
0.0
 40
6.0
 50
270.0
 51
0.0
  0
ARC
  8
ITEM_50
 10
2654.970334388004
 20
274.0238462735579
 30
0.0
 40
6.0
 50
180.0
 51
270.0000000000017
  0
LINE
  8
ITEM_50
 10
2681.470334387968
 20
334.0238462735702
 30
0.0
 11
2681.470334387968
 21
322.02384627357
 31
0.0
  0
LINE
  8
ITEM_50
 10
2662.470334387968
 20
340.0238462735702
 30
0.0
 11
2675.470334387968
 21
340.0238462735702
 31
0.0
  0
LINE
  8
ITEM_50
 10
2656.470334387968
 20
322.02384627357
 30
0.0
 11
2656.470334387968
 21
334.0238462735702
 31
0.0
  0
LINE
  8
ITEM_50
 10
2682.970334387968
 20
268.0238462735577
 30
0.0
 11
2681.470334387969
 21
268.0238462735579
 31
0.0
  0
LINE
  8
ITEM_50
 10
2688.970334387968
 20
348.02384627357
 30
0.0
 11
2688.970334387968
 21
274.0238462735577
 31
0.0
  0
LINE
  8
ITEM_50
 10
2648.970334388004
 20
274.0238462735579
 30
0.0
 11
2648.970334388004
 21
348.02384627357
 31
0.0
  0
LINE
  8
ITEM_50
 10
2656.470334387969
 20
268.0238462735579
 30
0.0
 11
2654.970334388004
 21
268.0238462735579
 31
0.0
  0
LINE
  8
ITEM_50
 10
3448.970334388004
 20
1188.023846273533
 30
0.0
 11
3448.970334388004
 21
1148.02384627357
 31
0.0
  0
LINE
  8
ITEM_50
 10
2648.970334388004
 20
1188.023846273534
 30
0.0
 11
3448.970334388004
 21
1188.023846273533
 31
0.0
  0
LINE
  8
ITEM_50
 10
2648.970334388004
 20
1148.02384627357
 30
0.0
 11
2648.970334388004
 21
1188.023846273534
 31
0.0
  0
LINE
  8
ITEM_50
 10
1952.598698414141
 20
-1223.541675152625
 30
0.0
 11
152.5986984141413
 21
-1223.541675152626
 31
0.0
  0
LINE
  8
ITEM_50
 10
152.5986984141413
 20
-1223.541675152626
 30
0.0
 11
152.5986984141413
 21
-1183.541675152626
 31
0.0
  0
LINE
  8
ITEM_50
 10
152.5986984141413
 20
-1183.541675152626
 30
0.0
 11
240.59869841407
 21
-1183.541675152626
 31
0.0
  0
LINE
  8
ITEM_50
 10
1952.598698414141
 20
-1183.541675152625
 30
0.0
 11
1952.598698414141
 21
-1223.541675152625
 31
0.0
  0
LINE
  8
ITEM_50
 10
1952.598698414141
 20
-1207.541675152625
 30
0.0
 11
1864.59869841407
 21
-1207.541675152625
 31
0.0
  0
LINE
  8
ITEM_50
 10
152.5986984141413
 20
-1199.541675152626
 30
0.0
 11
240.59869841407
 21
-1199.541675152626
 31
0.0
  0
LINE
  8
ITEM_50
 10
1740.59869841407
 20
-1207.541675152625
 30
0.0
 11
1564.59869841407
 21
-1207.541675152625
 31
0.0
  0
LINE
  8
ITEM_50
 10
1782.598698414059
 20
-1199.541675152625
 30
0.0
 11
1822.598698414081
 21
-1199.541675152625
 31
0.0
  0
LINE
  8
ITEM_50
 10
1782.598698414059
 20
-1183.541675152625
 30
0.0
 11
1822.59869841408
 21
-1183.541675152625
 31
0.0
  0
LINE
  8
ITEM_50
 10
1822.598698414081
 20
-1207.541675152625
 30
0.0
 11
1782.598698414059
 21
-1207.541675152625
 31
0.0
  0
LINE
  8
ITEM_50
 10
1864.59869841407
 20
-1199.541675152625
 30
0.0
 11
1952.598698414141
 21
-1199.541675152625
 31
0.0
  0
LINE
  8
ITEM_50
 10
1864.598698414069
 20
-1183.541675152625
 30
0.0
 11
1952.598698414141
 21
-1183.541675152625
 31
0.0
  0
LINE
  8
ITEM_50
 10
1440.59869841407
 20
-1207.541675152625
 30
0.0
 11
1264.59869841407
 21
-1207.541675152626
 31
0.0
  0
LINE
  8
ITEM_50
 10
1482.598698414059
 20
-1199.541675152626
 30
0.0
 11
1522.598698414081
 21
-1199.541675152626
 31
0.0
  0
LINE
  8
ITEM_50
 10
1482.598698414059
 20
-1183.541675152626
 30
0.0
 11
1522.59869841408
 21
-1183.541675152626
 31
0.0
  0
LINE
  8
ITEM_50
 10
1522.598698414081
 20
-1207.541675152625
 30
0.0
 11
1482.598698414059
 21
-1207.541675152625
 31
0.0
  0
LINE
  8
ITEM_50
 10
1564.59869841407
 20
-1199.541675152625
 30
0.0
 11
1740.59869841407
 21
-1199.541675152625
 31
0.0
  0
LINE
  8
ITEM_50
 10
1564.598698414069
 20
-1183.541675152625
 30
0.0
 11
1740.598698414069
 21
-1183.541675152625
 31
0.0
  0
LINE
  8
ITEM_50
 10
1140.59869841407
 20
-1207.541675152626
 30
0.0
 11
964.5986984140702
 21
-1207.541675152626
 31
0.0
  0
LINE
  8
ITEM_50
 10
1182.598698414059
 20
-1199.541675152626
 30
0.0
 11
1222.598698414081
 21
-1199.541675152626
 31
0.0
  0
LINE
  8
ITEM_50
 10
1182.598698414059
 20
-1183.541675152626
 30
0.0
 11
1222.59869841408
 21
-1183.541675152626
 31
0.0
  0
LINE
  8
ITEM_50
 10
1222.598698414081
 20
-1207.541675152626
 30
0.0
 11
1182.598698414059
 21
-1207.541675152626
 31
0.0
  0
LINE
  8
ITEM_50
 10
1264.59869841407
 20
-1199.541675152626
 30
0.0
 11
1440.59869841407
 21
-1199.541675152626
 31
0.0
  0
LINE
  8
ITEM_50
 10
1264.598698414069
 20
-1183.541675152626
 30
0.0
 11
1440.598698414069
 21
-1183.541675152626
 31
0.0
  0
LINE
  8
ITEM_50
 10
840.5986984140702
 20
-1207.541675152626
 30
0.0
 11
664.5986984140702
 21
-1207.541675152626
 31
0.0
  0
LINE
  8
ITEM_50
 10
882.598698414059
 20
-1199.541675152626
 30
0.0
 11
922.5986984140809
 21
-1199.541675152626
 31
0.0
  0
LINE
  8
ITEM_50
 10
882.598698414059
 20
-1183.541675152626
 30
0.0
 11
922.5986984140809
 21
-1183.541675152626
 31
0.0
  0
LINE
  8
ITEM_50
 10
922.5986984140809
 20
-1207.541675152626
 30
0.0
 11
882.598698414059
 21
-1207.541675152626
 31
0.0
  0
LINE
  8
ITEM_50
 10
964.5986984140702
 20
-1199.541675152626
 30
0.0
 11
1140.59869841407
 21
-1199.541675152626
 31
0.0
  0
LINE
  8
ITEM_50
 10
964.5986984140699
 20
-1183.541675152626
 30
0.0
 11
1140.598698414069
 21
-1183.541675152626
 31
0.0
  0
LINE
  8
ITEM_50
 10
540.5986984140702
 20
-1207.541675152626
 30
0.0
 11
364.59869841407
 21
-1207.541675152626
 31
0.0
  0
LINE
  8
ITEM_50
 10
582.598698414059
 20
-1199.541675152626
 30
0.0
 11
622.5986984140809
 21
-1199.541675152626
 31
0.0
  0
LINE
  8
ITEM_50
 10
582.598698414059
 20
-1183.541675152626
 30
0.0
 11
622.5986984140809
 21
-1183.541675152626
 31
0.0
  0
LINE
  8
ITEM_50
 10
622.5986984140809
 20
-1207.541675152626
 30
0.0
 11
582.598698414059
 21
-1207.541675152626
 31
0.0
  0
LINE
  8
ITEM_50
 10
664.5986984140702
 20
-1199.541675152626
 30
0.0
 11
840.5986984140702
 21
-1199.541675152626
 31
0.0
  0
LINE
  8
ITEM_50
 10
664.5986984140702
 20
-1183.541675152626
 30
0.0
 11
840.5986984140699
 21
-1183.541675152626
 31
0.0
  0
LINE
  8
ITEM_50
 10
282.5986984140591
 20
-1199.541675152626
 30
0.0
 11
322.5986984140809
 21
-1199.541675152626
 31
0.0
  0
LINE
  8
ITEM_50
 10
240.59869841407
 20
-1207.541675152626
 30
0.0
 11
152.5986984141413
 21
-1207.541675152626
 31
0.0
  0
LINE
  8
ITEM_50
 10
282.5986984140591
 20
-1183.541675152626
 30
0.0
 11
322.5986984140809
 21
-1183.541675152626
 31
0.0
  0
LINE
  8
ITEM_50
 10
322.5986984140809
 20
-1207.541675152626
 30
0.0
 11
282.5986984140591
 21
-1207.541675152626
 31
0.0
  0
LINE
  8
ITEM_50
 10
364.59869841407
 20
-1199.541675152626
 30
0.0
 11
540.5986984140702
 21
-1199.541675152626
 31
0.0
  0
LINE
  8
ITEM_50
 10
364.59869841407
 20
-1183.541675152626
 30
0.0
 11
540.5986984140702
 21
-1183.541675152626
 31
0.0
  0
LINE
  8
ITEM_50
 10
364.5986984140699
 20
-463.5416751526264
 30
0.0
 11
540.5986984140699
 21
-463.5416751526264
 31
0.0
  0
LINE
  8
ITEM_50
 10
364.5986984140699
 20
-447.5416751526264
 30
0.0
 11
540.5986984140699
 21
-447.5416751526264
 31
0.0
  0
LINE
  8
ITEM_50
 10
322.5986984140808
 20
-439.5416751526263
 30
0.0
 11
282.598698414059
 21
-439.5416751526263
 31
0.0
  0
LINE
  8
ITEM_50
 10
282.598698414059
 20
-463.5416751526264
 30
0.0
 11
322.5986984140808
 21
-463.5416751526264
 31
0.0
  0
LINE
  8
ITEM_50
 10
240.5986984140699
 20
-439.5416751526263
 30
0.0
 11
152.5986984141412
 21
-439.5416751526264
 31
0.0
  0
LINE
  8
ITEM_50
 10
282.598698414059
 20
-447.5416751526264
 30
0.0
 11
322.5986984140808
 21
-447.5416751526264
 31
0.0
  0
LINE
  8
ITEM_50
 10
664.5986984140699
 20
-463.5416751526263
 30
0.0
 11
840.5986984140699
 21
-463.5416751526263
 31
0.0
  0
LINE
  8
ITEM_50
 10
664.5986984140699
 20
-447.5416751526264
 30
0.0
 11
840.5986984140699
 21
-447.5416751526263
 31
0.0
  0
LINE
  8
ITEM_50
 10
622.5986984140809
 20
-439.5416751526264
 30
0.0
 11
582.598698414059
 21
-439.5416751526264
 31
0.0
  0
LINE
  8
ITEM_50
 10
582.598698414059
 20
-463.5416751526264
 30
0.0
 11
622.5986984140809
 21
-463.5416751526263
 31
0.0
  0
LINE
  8
ITEM_50
 10
582.598698414059
 20
-447.5416751526264
 30
0.0
 11
622.5986984140809
 21
-447.5416751526264
 31
0.0
  0
LINE
  8
ITEM_50
 10
540.5986984140699
 20
-439.5416751526264
 30
0.0
 11
364.5986984140699
 21
-439.5416751526264
 31
0.0
  0
LINE
  8
ITEM_50
 10
964.5986984140699
 20
-463.5416751526262
 30
0.0
 11
1140.598698414069
 21
-463.5416751526262
 31
0.0
  0
LINE
  8
ITEM_50
 10
964.5986984140699
 20
-447.5416751526263
 30
0.0
 11
1140.598698414069
 21
-447.5416751526263
 31
0.0
  0
LINE
  8
ITEM_50
 10
922.5986984140809
 20
-439.5416751526262
 30
0.0
 11
882.598698414059
 21
-439.5416751526263
 31
0.0
  0
LINE
  8
ITEM_50
 10
882.598698414059
 20
-463.5416751526263
 30
0.0
 11
922.5986984140809
 21
-463.5416751526263
 31
0.0
  0
LINE
  8
ITEM_50
 10
882.598698414059
 20
-447.5416751526263
 30
0.0
 11
922.5986984140809
 21
-447.5416751526263
 31
0.0
  0
LINE
  8
ITEM_50
 10
840.5986984140699
 20
-439.5416751526263
 30
0.0
 11
664.5986984140699
 21
-439.5416751526264
 31
0.0
  0
LINE
  8
ITEM_50
 10
1264.598698414069
 20
-463.5416751526262
 30
0.0
 11
1440.598698414069
 21
-463.5416751526263
 31
0.0
  0
LINE
  8
ITEM_50
 10
1264.598698414069
 20
-447.5416751526263
 30
0.0
 11
1440.598698414069
 21
-447.5416751526263
 31
0.0
  0
LINE
  8
ITEM_50
 10
1222.59869841408
 20
-439.5416751526263
 30
0.0
 11
1182.598698414059
 21
-439.5416751526263
 31
0.0
  0
LINE
  8
ITEM_50
 10
1182.598698414059
 20
-463.5416751526262
 30
0.0
 11
1222.59869841408
 21
-463.5416751526262
 31
0.0
  0
LINE
  8
ITEM_50
 10
1182.598698414059
 20
-447.5416751526263
 30
0.0
 11
1222.59869841408
 21
-447.5416751526263
 31
0.0
  0
LINE
  8
ITEM_50
 10
1140.598698414069
 20
-439.5416751526263
 30
0.0
 11
964.5986984140699
 21
-439.5416751526262
 31
0.0
  0
LINE
  8
ITEM_50
 10
1564.598698414069
 20
-463.5416751526263
 30
0.0
 11
1740.598698414069
 21
-463.5416751526264
 31
0.0
  0
LINE
  8
ITEM_50
 10
1564.598698414069
 20
-447.5416751526263
 30
0.0
 11
1740.598698414069
 21
-447.5416751526264
 31
0.0
  0
LINE
  8
ITEM_50
 10
1522.59869841408
 20
-439.5416751526264
 30
0.0
 11
1482.598698414059
 21
-439.5416751526264
 31
0.0
  0
LINE
  8
ITEM_50
 10
1482.598698414059
 20
-463.5416751526263
 30
0.0
 11
1522.59869841408
 21
-463.5416751526263
 31
0.0
  0
LINE
  8
ITEM_50
 10
1482.598698414059
 20
-447.5416751526263
 30
0.0
 11
1522.59869841408
 21
-447.5416751526263
 31
0.0
  0
LINE
  8
ITEM_50
 10
1440.598698414069
 20
-439.5416751526264
 30
0.0
 11
1264.598698414069
 21
-439.5416751526263
 31
0.0
  0
LINE
  8
ITEM_50
 10
1864.598698414069
 20
-463.5416751526265
 30
0.0
 11
1952.598698414141
 21
-463.5416751526264
 31
0.0
  0
LINE
  8
ITEM_50
 10
1864.598698414069
 20
-447.5416751526263
 30
0.0
 11
1952.598698414141
 21
-447.5416751526264
 31
0.0
  0
LINE
  8
ITEM_50
 10
1822.59869841408
 20
-439.5416751526264
 30
0.0
 11
1782.598698414059
 21
-439.5416751526264
 31
0.0
  0
LINE
  8
ITEM_50
 10
1782.598698414059
 20
-463.5416751526264
 30
0.0
 11
1822.59869841408
 21
-463.5416751526265
 31
0.0
  0
LINE
  8
ITEM_50
 10
1782.598698414059
 20
-447.5416751526264
 30
0.0
 11
1822.59869841408
 21
-447.5416751526263
 31
0.0
  0
LINE
  8
ITEM_50
 10
1740.598698414069
 20
-439.5416751526264
 30
0.0
 11
1564.598698414069
 21
-439.5416751526264
 31
0.0
  0
LINE
  8
ITEM_50
 10
152.5986984141412
 20
-1183.541675152626
 30
0.0
 11
152.5986984141412
 21
-1223.541675152626
 31
0.0
  0
LINE
  8
ITEM_50
 10
1952.598698414141
 20
-1223.541675152626
 30
0.0
 11
1952.598698414141
 21
-1183.541675152626
 31
0.0
  0
LINE
  8
ITEM_50
 10
152.5986984141412
 20
-447.5416751526264
 30
0.0
 11
240.5986984140699
 21
-447.5416751526264
 31
0.0
  0
LINE
  8
ITEM_50
 10
1952.598698414141
 20
-439.5416751526264
 30
0.0
 11
1864.598698414069
 21
-439.5416751526264
 31
0.0
  0
LINE
  8
ITEM_50
 10
1952.598698414141
 20
-463.5416751526264
 30
0.0
 11
1952.598698414141
 21
-423.5416751526264
 31
0.0
  0
LINE
  8
ITEM_50
 10
152.5986984141412
 20
-463.5416751526264
 30
0.0
 11
240.5986984140699
 21
-463.5416751526264
 31
0.0
  0
LINE
  8
ITEM_50
 10
152.5986984141412
 20
-423.5416751526264
 30
0.0
 11
152.5986984141412
 21
-463.5416751526264
 31
0.0
  0
LINE
  8
ITEM_50
 10
1952.598698414141
 20
-423.5416751526264
 30
0.0
 11
152.5986984141412
 21
-423.5416751526264
 31
0.0
  0
ARC
  8
ITEM_50
 10
1956.59869841414
 20
-427.5416751526272
 30
0.0
 40
4.0
 50
90.0
 51
180.0
  0
LINE
  8
ITEM_50
 10
2028.59869841414
 20
-423.5416751526272
 30
0.0
 11
1956.59869841414
 21
-423.5416751526272
 31
0.0
  0
ARC
  8
ITEM_50
 10
2028.59869841414
 20
-427.5416751526272
 30
0.0
 40
4.0
 50
0.0
 51
90.0
  0
LINE
  8
ITEM_50
 10
2032.59869841414
 20
-459.5416751526272
 30
0.0
 11
2032.59869841414
 21
-427.5416751526272
 31
0.0
  0
ARC
  8
ITEM_50
 10
2028.59869841414
 20
-459.5416751526272
 30
0.0
 40
4.0
 50
270.0
 51
0.0
  0
LINE
  8
ITEM_50
 10
1956.59869841414
 20
-463.5416751526272
 30
0.0
 11
2028.59869841414
 21
-463.5416751526272
 31
0.0
  0
ARC
  8
ITEM_50
 10
1956.59869841414
 20
-459.5416751526272
 30
0.0
 40
4.0
 50
180.0
 51
270.0
  0
LINE
  8
ITEM_50
 10
1952.59869841414
 20
-427.5416751526272
 30
0.0
 11
1952.59869841414
 21
-459.5416751526272
 31
0.0
  0
LINE
  8
ITEM_25
 10
2030.09869841414
 20
-458.5416751526272
 30
0.0
 11
2030.09869841414
 21
-428.5416751526272
 31
0.0
  0
LINE
  8
ITEM_25
 10
1957.59869841414
 20
-461.0416751526272
 30
0.0
 11
2027.59869841414
 21
-461.0416751526272
 31
0.0
  0
LINE
  8
ITEM_25
 10
1955.09869841414
 20
-428.5416751526272
 30
0.0
 11
1955.09869841414
 21
-458.5416751526272
 31
0.0
  0
LINE
  8
ITEM_25
 10
2027.59869841414
 20
-426.0416751526272
 30
0.0
 11
1957.59869841414
 21
-426.0416751526272
 31
0.0
  0
LINE
  8
ITEM_50
 10
2032.598698414141
 20
-1183.541675152626
 30
0.0
 11
1952.598698414141
 21
-1183.541675152626
 31
0.0
  0
LINE
  8
ITEM_50
 10
1952.598698414141
 20
-1183.541675152626
 30
0.0
 11
1952.598698414141
 21
-463.5416751526261
 31
0.0
  0
LINE
  8
ITEM_50
 10
1952.598698414141
 20
-463.5416751526261
 30
0.0
 11
2032.598698414141
 21
-463.5416751526261
 31
0.0
  0
LINE
  8
ITEM_50
 10
2032.598698414141
 20
-463.5416751526261
 30
0.0
 11
2032.598698414141
 21
-1183.541675152626
 31
0.0
  0
LINE
  8
ITEM_50
 10
2016.598698414141
 20
-1183.541675152626
 30
0.0
 11
2016.598698414141
 21
-463.5416751526261
 31
0.0
  0
LINE
  8
ITEM_50
 10
2008.598698414141
 20
-463.5416751526261
 30
0.0
 11
2008.598698414141
 21
-1183.541675152626
 31
0.0
  0
LINE
  8
ITEM_50
 10
1968.598698414141
 20
-1183.541675152626
 30
0.0
 11
1968.598698414141
 21
-463.5416751526261
 31
0.0
  0
LINE
  8
ITEM_50
 10
1976.598698414141
 20
-463.5416751526261
 30
0.0
 11
1976.598698414141
 21
-1183.541675152626
 31
0.0
  0
ARC
  8
ITEM_50
 10
1956.59869841414
 20
-1187.541675152626
 30
0.0
 40
4.0
 50
90.0
 51
180.0
  0
LINE
  8
ITEM_50
 10
2028.59869841414
 20
-1183.541675152626
 30
0.0
 11
1956.59869841414
 21
-1183.541675152626
 31
0.0
  0
ARC
  8
ITEM_50
 10
2028.59869841414
 20
-1187.541675152626
 30
0.0
 40
4.0
 50
0.0
 51
90.0
  0
LINE
  8
ITEM_50
 10
2032.59869841414
 20
-1219.541675152627
 30
0.0
 11
2032.59869841414
 21
-1187.541675152626
 31
0.0
  0
ARC
  8
ITEM_50
 10
2028.59869841414
 20
-1219.541675152627
 30
0.0
 40
4.0
 50
270.0
 51
0.0
  0
LINE
  8
ITEM_50
 10
1956.59869841414
 20
-1223.541675152627
 30
0.0
 11
2028.59869841414
 21
-1223.541675152627
 31
0.0
  0
ARC
  8
ITEM_50
 10
1956.59869841414
 20
-1219.541675152627
 30
0.0
 40
4.0
 50
180.0
 51
270.0
  0
LINE
  8
ITEM_50
 10
1952.59869841414
 20
-1187.541675152626
 30
0.0
 11
1952.59869841414
 21
-1219.541675152627
 31
0.0
  0
LINE
  8
ITEM_25
 10
2030.09869841414
 20
-1218.541675152627
 30
0.0
 11
2030.09869841414
 21
-1188.541675152626
 31
0.0
  0
LINE
  8
ITEM_25
 10
1957.59869841414
 20
-1221.041675152626
 30
0.0
 11
2027.59869841414
 21
-1221.041675152627
 31
0.0
  0
LINE
  8
ITEM_25
 10
1955.09869841414
 20
-1188.541675152626
 30
0.0
 11
1955.09869841414
 21
-1218.541675152627
 31
0.0
  0
LINE
  8
ITEM_25
 10
2027.59869841414
 20
-1186.041675152626
 30
0.0
 11
1957.59869841414
 21
-1186.041675152626
 31
0.0
  0
ARC
  8
ITEM_50
 10
148.598698414142
 20
-459.5416751526253
 30
0.0
 40
4.0
 50
270.0
 51
0.0
  0
LINE
  8
ITEM_50
 10
76.59869841414204
 20
-463.5416751526253
 30
0.0
 11
148.598698414142
 21
-463.5416751526253
 31
0.0
  0
ARC
  8
ITEM_50
 10
76.59869841414204
 20
-459.5416751526253
 30
0.0
 40
4.0
 50
180.0
 51
270.0
  0
LINE
  8
ITEM_50
 10
72.59869841414204
 20
-427.5416751526253
 30
0.0
 11
72.59869841414204
 21
-459.5416751526253
 31
0.0
  0
ARC
  8
ITEM_50
 10
76.59869841414204
 20
-427.5416751526253
 30
0.0
 40
4.0
 50
89.99999999999998
 51
180.0
  0
LINE
  8
ITEM_50
 10
148.598698414142
 20
-423.5416751526253
 30
0.0
 11
76.59869841414204
 21
-423.5416751526253
 31
0.0
  0
ARC
  8
ITEM_50
 10
148.598698414142
 20
-427.5416751526253
 30
0.0
 40
4.0
 50
0.0000000000000013
 51
90.0
  0
LINE
  8
ITEM_50
 10
152.598698414142
 20
-459.5416751526253
 30
0.0
 11
152.598698414142
 21
-427.5416751526253
 31
0.0
  0
LINE
  8
ITEM_25
 10
75.09869841414204
 20
-428.5416751526253
 30
0.0
 11
75.09869841414204
 21
-458.5416751526253
 31
0.0
  0
LINE
  8
ITEM_25
 10
147.5986984141421
 20
-426.0416751526253
 30
0.0
 11
77.59869841414204
 21
-426.0416751526253
 31
0.0
  0
LINE
  8
ITEM_25
 10
150.0986984141421
 20
-458.5416751526253
 30
0.0
 11
150.0986984141421
 21
-428.5416751526253
 31
0.0
  0
LINE
  8
ITEM_25
 10
77.59869841414204
 20
-461.0416751526253
 30
0.0
 11
147.5986984141421
 21
-461.0416751526253
 31
0.0
  0
ARC
  8
ITEM_50
 10
148.5986984141419
 20
-1219.541675152625
 30
0.0
 40
4.0
 50
270.0
 51
0.0
  0
LINE
  8
ITEM_50
 10
76.59869841414193
 20
-1223.541675152625
 30
0.0
 11
148.5986984141419
 21
-1223.541675152625
 31
0.0
  0
ARC
  8
ITEM_50
 10
76.59869841414193
 20
-1219.541675152625
 30
0.0
 40
4.0
 50
180.0
 51
270.0
  0
LINE
  8
ITEM_50
 10
72.59869841414193
 20
-1187.541675152625
 30
0.0
 11
72.59869841414193
 21
-1219.541675152625
 31
0.0
  0
ARC
  8
ITEM_50
 10
76.59869841414193
 20
-1187.541675152625
 30
0.0
 40
4.0
 50
89.99999999999998
 51
180.0
  0
LINE
  8
ITEM_50
 10
148.5986984141419
 20
-1183.541675152625
 30
0.0
 11
76.59869841414193
 21
-1183.541675152625
 31
0.0
  0
ARC
  8
ITEM_50
 10
148.5986984141419
 20
-1187.541675152625
 30
0.0
 40
4.0
 50
0.0000000000000013
 51
90.0
  0
LINE
  8
ITEM_50
 10
152.5986984141419
 20
-1219.541675152625
 30
0.0
 11
152.5986984141419
 21
-1187.541675152625
 31
0.0
  0
LINE
  8
ITEM_25
 10
75.09869841414193
 20
-1188.541675152625
 30
0.0
 11
75.09869841414193
 21
-1218.541675152625
 31
0.0
  0
LINE
  8
ITEM_25
 10
147.598698414142
 20
-1186.041675152625
 30
0.0
 11
77.59869841414193
 21
-1186.041675152625
 31
0.0
  0
LINE
  8
ITEM_25
 10
150.098698414142
 20
-1218.541675152625
 30
0.0
 11
150.098698414142
 21
-1188.541675152625
 31
0.0
  0
LINE
  8
ITEM_25
 10
77.59869841414193
 20
-1221.041675152625
 30
0.0
 11
147.598698414142
 21
-1221.041675152625
 31
0.0
  0
LINE
  8
ITEM_50
 10
152.5986984141412
 20
-1183.541675152626
 30
0.0
 11
72.59869841414126
 21
-1183.541675152626
 31
0.0
  0
LINE
  8
ITEM_50
 10
72.59869841414126
 20
-1183.541675152626
 30
0.0
 11
72.59869841414126
 21
-463.5416751526261
 31
0.0
  0
LINE
  8
ITEM_50
 10
72.59869841414126
 20
-463.5416751526261
 30
0.0
 11
152.5986984141412
 21
-463.5416751526261
 31
0.0
  0
LINE
  8
ITEM_50
 10
152.5986984141412
 20
-463.5416751526261
 30
0.0
 11
152.5986984141412
 21
-1183.541675152626
 31
0.0
  0
LINE
  8
ITEM_50
 10
136.5986984141412
 20
-1183.541675152626
 30
0.0
 11
136.5986984141412
 21
-463.5416751526261
 31
0.0
  0
LINE
  8
ITEM_50
 10
128.5986984141412
 20
-463.5416751526261
 30
0.0
 11
128.5986984141412
 21
-1183.541675152626
 31
0.0
  0
LINE
  8
ITEM_50
 10
88.59869841414126
 20
-1183.541675152626
 30
0.0
 11
88.59869841414126
 21
-463.5416751526261
 31
0.0
  0
LINE
  8
ITEM_50
 10
96.59869841414126
 20
-463.5416751526261
 30
0.0
 11
96.59869841414126
 21
-1183.541675152626
 31
0.0
  0
LINE
  8
ITEM_50
 10
240.5986984140698
 20
-1223.541675152625
 30
0.0
 11
240.59869841407
 21
-423.5416751526258
 31
0.0
  0
LINE
  8
ITEM_50
 10
282.5986984140586
 20
-1223.541675152625
 30
0.0
 11
282.5986984140591
 21
-423.5416751526258
 31
0.0
  0
LINE
  8
ITEM_50
 10
282.5986984140586
 20
-1223.541675152625
 30
0.0
 11
240.5986984140698
 21
-1223.541675152625
 31
0.0
  0
LINE
  8
ITEM_50
 10
322.5986984140809
 20
-1223.541675152625
 30
0.0
 11
364.5986984140698
 21
-1223.541675152625
 31
0.0
  0
LINE
  8
ITEM_50
 10
322.5986984140809
 20
-423.5416751526258
 30
0.0
 11
322.5986984140809
 21
-1223.541675152625
 31
0.0
  0
LINE
  8
ITEM_50
 10
364.5986984140698
 20
-1223.541675152625
 30
0.0
 11
364.59869841407
 21
-423.5416751526258
 31
0.0
  0
LINE
  8
ITEM_50
 10
364.59869841407
 20
-423.5416751526258
 30
0.0
 11
322.5986984140809
 21
-423.5416751526258
 31
0.0
  0
LINE
  8
ITEM_50
 10
240.59869841407
 20
-423.5416751526258
 30
0.0
 11
282.5986984140591
 21
-423.5416751526258
 31
0.0
  0
LINE
  8
ITEM_50
 10
540.5986984140697
 20
-1223.541675152625
 30
0.0
 11
540.5986984140699
 21
-423.5416751526258
 31
0.0
  0
LINE
  8
ITEM_50
 10
582.5986984140586
 20
-1223.541675152625
 30
0.0
 11
582.598698414059
 21
-423.5416751526258
 31
0.0
  0
LINE
  8
ITEM_50
 10
582.5986984140586
 20
-1223.541675152625
 30
0.0
 11
540.5986984140697
 21
-1223.541675152625
 31
0.0
  0
LINE
  8
ITEM_50
 10
622.5986984140809
 20
-1223.541675152625
 30
0.0
 11
664.5986984140697
 21
-1223.541675152625
 31
0.0
  0
LINE
  8
ITEM_50
 10
622.5986984140809
 20
-423.5416751526258
 30
0.0
 11
622.5986984140809
 21
-1223.541675152625
 31
0.0
  0
LINE
  8
ITEM_50
 10
664.5986984140697
 20
-1223.541675152625
 30
0.0
 11
664.5986984140699
 21
-423.5416751526258
 31
0.0
  0
LINE
  8
ITEM_50
 10
664.5986984140699
 20
-423.5416751526258
 30
0.0
 11
622.5986984140809
 21
-423.5416751526258
 31
0.0
  0
LINE
  8
ITEM_50
 10
540.5986984140699
 20
-423.5416751526258
 30
0.0
 11
582.598698414059
 21
-423.5416751526258
 31
0.0
  0
LINE
  8
ITEM_50
 10
840.5986984140697
 20
-1223.541675152625
 30
0.0
 11
840.5986984140699
 21
-423.5416751526258
 31
0.0
  0
LINE
  8
ITEM_50
 10
882.5986984140586
 20
-1223.541675152625
 30
0.0
 11
882.598698414059
 21
-423.5416751526258
 31
0.0
  0
LINE
  8
ITEM_50
 10
882.5986984140586
 20
-1223.541675152625
 30
0.0
 11
840.5986984140697
 21
-1223.541675152625
 31
0.0
  0
LINE
  8
ITEM_50
 10
922.5986984140809
 20
-1223.541675152625
 30
0.0
 11
964.5986984140697
 21
-1223.541675152625
 31
0.0
  0
LINE
  8
ITEM_50
 10
922.5986984140809
 20
-423.5416751526258
 30
0.0
 11
922.5986984140809
 21
-1223.541675152625
 31
0.0
  0
LINE
  8
ITEM_50
 10
964.5986984140697
 20
-1223.541675152625
 30
0.0
 11
964.5986984140699
 21
-423.5416751526258
 31
0.0
  0
LINE
  8
ITEM_50
 10
964.5986984140699
 20
-423.5416751526258
 30
0.0
 11
922.5986984140809
 21
-423.5416751526258
 31
0.0
  0
LINE
  8
ITEM_50
 10
840.5986984140699
 20
-423.5416751526258
 30
0.0
 11
882.598698414059
 21
-423.5416751526258
 31
0.0
  0
LINE
  8
ITEM_50
 10
1440.598698414069
 20
-1223.541675152625
 30
0.0
 11
1440.598698414069
 21
-423.5416751526258
 31
0.0
  0
LINE
  8
ITEM_50
 10
1482.598698414058
 20
-1223.541675152625
 30
0.0
 11
1482.598698414059
 21
-423.5416751526258
 31
0.0
  0
LINE
  8
ITEM_50
 10
1482.598698414058
 20
-1223.541675152625
 30
0.0
 11
1440.598698414069
 21
-1223.541675152625
 31
0.0
  0
LINE
  8
ITEM_50
 10
1522.59869841408
 20
-1223.541675152625
 30
0.0
 11
1564.598698414069
 21
-1223.541675152625
 31
0.0
  0
LINE
  8
ITEM_50
 10
1522.59869841408
 20
-423.5416751526258
 30
0.0
 11
1522.59869841408
 21
-1223.541675152625
 31
0.0
  0
LINE
  8
ITEM_50
 10
1564.598698414069
 20
-1223.541675152625
 30
0.0
 11
1564.598698414069
 21
-423.5416751526258
 31
0.0
  0
LINE
  8
ITEM_50
 10
1564.598698414069
 20
-423.5416751526258
 30
0.0
 11
1522.59869841408
 21
-423.5416751526258
 31
0.0
  0
LINE
  8
ITEM_50
 10
1440.598698414069
 20
-423.5416751526258
 30
0.0
 11
1482.598698414059
 21
-423.5416751526258
 31
0.0
  0
LINE
  8
ITEM_50
 10
1740.598698414069
 20
-1223.541675152625
 30
0.0
 11
1740.598698414069
 21
-423.5416751526258
 31
0.0
  0
LINE
  8
ITEM_50
 10
1782.598698414058
 20
-1223.541675152625
 30
0.0
 11
1782.598698414059
 21
-423.5416751526258
 31
0.0
  0
LINE
  8
ITEM_50
 10
1782.598698414058
 20
-1223.541675152625
 30
0.0
 11
1740.598698414069
 21
-1223.541675152625
 31
0.0
  0
LINE
  8
ITEM_50
 10
1822.59869841408
 20
-1223.541675152625
 30
0.0
 11
1864.598698414069
 21
-1223.541675152625
 31
0.0
  0
LINE
  8
ITEM_50
 10
1822.59869841408
 20
-423.5416751526258
 30
0.0
 11
1822.59869841408
 21
-1223.541675152625
 31
0.0
  0
LINE
  8
ITEM_50
 10
1864.598698414069
 20
-1223.541675152625
 30
0.0
 11
1864.598698414069
 21
-423.5416751526258
 31
0.0
  0
LINE
  8
ITEM_50
 10
1864.598698414069
 20
-423.5416751526258
 30
0.0
 11
1822.59869841408
 21
-423.5416751526258
 31
0.0
  0
LINE
  8
ITEM_50
 10
1740.598698414069
 20
-423.5416751526258
 30
0.0
 11
1782.598698414059
 21
-423.5416751526258
 31
0.0
  0
LINE
  8
ITEM_50
 10
1140.598698414069
 20
-1223.541675152625
 30
0.0
 11
1140.598698414069
 21
-423.5416751526258
 31
0.0
  0
LINE
  8
ITEM_50
 10
1182.598698414058
 20
-1223.541675152625
 30
0.0
 11
1182.598698414059
 21
-423.5416751526258
 31
0.0
  0
LINE
  8
ITEM_50
 10
1182.598698414058
 20
-1223.541675152625
 30
0.0
 11
1140.598698414069
 21
-1223.541675152625
 31
0.0
  0
LINE
  8
ITEM_50
 10
1222.59869841408
 20
-1223.541675152625
 30
0.0
 11
1264.598698414069
 21
-1223.541675152625
 31
0.0
  0
LINE
  8
ITEM_50
 10
1222.59869841408
 20
-423.5416751526258
 30
0.0
 11
1222.59869841408
 21
-1223.541675152625
 31
0.0
  0
LINE
  8
ITEM_50
 10
1264.598698414069
 20
-1223.541675152625
 30
0.0
 11
1264.598698414069
 21
-423.5416751526258
 31
0.0
  0
LINE
  8
ITEM_50
 10
1264.598698414069
 20
-423.5416751526258
 30
0.0
 11
1222.59869841408
 21
-423.5416751526258
 31
0.0
  0
LINE
  8
ITEM_50
 10
1140.598698414069
 20
-423.5416751526258
 30
0.0
 11
1182.598698414059
 21
-423.5416751526258
 31
0.0
  0
LINE
  8
ITEM_50
 10
75.81950829611604
 20
332.5921374292309
 30
0.0
 11
155.819508296116
 21
332.5921374292309
 31
0.0
  0
LINE
  8
ITEM_50
 10
155.819508296116
 20
332.5921374292309
 30
0.0
 11
155.819508296116
 21
1132.59213742923
 31
0.0
  0
LINE
  8
ITEM_50
 10
155.819508296116
 20
1132.59213742923
 30
0.0
 11
75.81950829611604
 21
1132.59213742923
 31
0.0
  0
LINE
  8
ITEM_50
 10
75.81950829611604
 20
1132.59213742923
 30
0.0
 11
75.81950829611604
 21
332.5921374292309
 31
0.0
  0
LINE
  8
ITEM_50
 10
91.81950829611604
 20
332.5921374292309
 30
0.0
 11
91.81950829611604
 21
1132.59213742923
 31
0.0
  0
LINE
  8
ITEM_50
 10
99.81950829611604
 20
1132.59213742923
 30
0.0
 11
99.81950829611604
 21
332.5921374292309
 31
0.0
  0
LINE
  8
ITEM_50
 10
139.819508296116
 20
332.5921374292309
 30
0.0
 11
139.819508296116
 21
1132.59213742923
 31
0.0
  0
LINE
  8
ITEM_50
 10
131.819508296116
 20
1132.59213742923
 30
0.0
 11
131.819508296116
 21
332.5921374292309
 31
0.0
  0
LINE
  8
ITEM_50
 10
155.819508296116
 20
332.5921374292309
 30
0.0
 11
1955.819508296116
 21
332.5921374292309
 31
0.0
  0
LINE
  8
ITEM_50
 10
1955.819508296116
 20
332.5921374292309
 30
0.0
 11
1955.819508296116
 21
372.5921374292309
 31
0.0
  0
LINE
  8
ITEM_50
 10
1955.819508296116
 20
372.5921374292309
 30
0.0
 11
155.819508296116
 21
372.5921374292309
 31
0.0
  0
LINE
  8
ITEM_50
 10
155.819508296116
 20
372.5921374292309
 30
0.0
 11
155.819508296116
 21
332.5921374292309
 31
0.0
  0
LINE
  8
ITEM_50
 10
155.819508296116
 20
348.5921374292309
 30
0.0
 11
1955.819508296116
 21
348.5921374292309
 31
0.0
  0
LINE
  8
ITEM_50
 10
1955.819508296116
 20
356.5921374292309
 30
0.0
 11
155.819508296116
 21
356.5921374292309
 31
0.0
  0
LINE
  8
ITEM_50
 10
153.319508296116
 20
1136.59213742923
 30
0.0
 11
78.31950829611604
 21
1136.59213742923
 31
0.0
  0
ARC
  8
ITEM_50
 10
78.31950829611604
 20
1134.09213742923
 30
0.0
 40
2.5
 50
90.0
 51
180.0
  0
LINE
  8
ITEM_50
 10
75.81950829611604
 20
1134.09213742923
 30
0.0
 11
75.81950829611604
 21
1132.59213742923
 31
0.0
  0
LINE
  8
ITEM_50
 10
75.81950829611604
 20
1132.59213742923
 30
0.0
 11
155.819508296116
 21
1132.59213742923
 31
0.0
  0
LINE
  8
ITEM_50
 10
155.819508296116
 20
1132.59213742923
 30
0.0
 11
155.819508296116
 21
1134.09213742923
 31
0.0
  0
ARC
  8
ITEM_50
 10
153.319508296116
 20
1134.09213742923
 30
0.0
 40
2.5
 50
0.0
 51
90.0
  0
LINE
  8
ITEM_50
 10
155.819508296116
 20
1132.59213742923
 30
0.0
 11
1955.819508296116
 21
1132.59213742923
 31
0.0
  0
LINE
  8
ITEM_50
 10
1955.819508296116
 20
1132.59213742923
 30
0.0
 11
1955.819508296116
 21
1052.59213742923
 31
0.0
  0
LINE
  8
ITEM_50
 10
1955.819508296116
 20
1052.59213742923
 30
0.0
 11
155.819508296116
 21
1052.59213742923
 31
0.0
  0
LINE
  8
ITEM_50
 10
155.819508296116
 20
1052.59213742923
 30
0.0
 11
155.819508296116
 21
1132.59213742923
 31
0.0
  0
LINE
  8
ITEM_50
 10
155.819508296116
 20
1116.59213742923
 30
0.0
 11
1955.819508296116
 21
1116.59213742923
 31
0.0
  0
LINE
  8
ITEM_50
 10
1955.819508296116
 20
1108.59213742923
 30
0.0
 11
155.819508296116
 21
1108.59213742923
 31
0.0
  0
LINE
  8
ITEM_50
 10
155.819508296116
 20
1068.59213742923
 30
0.0
 11
1955.819508296116
 21
1068.59213742923
 31
0.0
  0
LINE
  8
ITEM_50
 10
1955.819508296116
 20
1076.59213742923
 30
0.0
 11
155.819508296116
 21
1076.59213742923
 31
0.0
  0
LINE
  8
ITEM_50
 10
2033.319508296116
 20
1136.59213742923
 30
0.0
 11
1958.319508296116
 21
1136.59213742923
 31
0.0
  0
ARC
  8
ITEM_50
 10
1958.319508296116
 20
1134.09213742923
 30
0.0
 40
2.5
 50
90.0
 51
180.0
  0
LINE
  8
ITEM_50
 10
1955.819508296116
 20
1134.09213742923
 30
0.0
 11
1955.819508296116
 21
1132.59213742923
 31
0.0
  0
LINE
  8
ITEM_50
 10
1955.819508296116
 20
1132.59213742923
 30
0.0
 11
2035.819508296116
 21
1132.59213742923
 31
0.0
  0
LINE
  8
ITEM_50
 10
2035.819508296116
 20
1132.59213742923
 30
0.0
 11
2035.819508296116
 21
1134.09213742923
 31
0.0
  0
ARC
  8
ITEM_50
 10
2033.319508296116
 20
1134.09213742923
 30
0.0
 40
2.5
 50
0.0
 51
90.0
  0
LINE
  8
ITEM_50
 10
2648.970334388004
 20
1149.52384627357
 30
0.0
 11
2648.970334388004
 21
1148.02384627357
 31
0.0
  0
LINE
  8
ITEM_50
 10
2648.970334388004
 20
1148.02384627357
 30
0.0
 11
2688.970334388004
 21
1148.02384627357
 31
0.0
  0
LINE
  8
ITEM_50
 10
2688.970334388004
 20
1148.02384627357
 30
0.0
 11
2688.970334388004
 21
1149.52384627357
 31
0.0
  0
ARC
  8
ITEM_50
 10
2686.470334388004
 20
1149.52384627357
 30
0.0
 40
2.5
 50
0.0
 51
90.0
  0
LINE
  8
ITEM_50
 10
2686.470334388004
 20
1152.02384627357
 30
0.0
 11
2651.470334388004
 21
1152.02384627357
 31
0.0
  0
ARC
  8
ITEM_50
 10
2651.470334388004
 20
1149.52384627357
 30
0.0
 40
2.5
 50
90.0
 51
180.0
  0
LINE
  8
ITEM_50
 10
3408.970334388004
 20
1149.52384627357
 30
0.0
 11
3408.970334388004
 21
1148.02384627357
 31
0.0
  0
LINE
  8
ITEM_50
 10
3408.970334388004
 20
1148.02384627357
 30
0.0
 11
3448.970334388004
 21
1148.02384627357
 31
0.0
  0
LINE
  8
ITEM_50
 10
3448.970334388004
 20
1148.02384627357
 30
0.0
 11
3448.970334388004
 21
1149.52384627357
 31
0.0
  0
ARC
  8
ITEM_50
 10
3446.470334388004
 20
1149.52384627357
 30
0.0
 40
2.5
 50
0.0
 51
90.0
  0
LINE
  8
ITEM_50
 10
3446.470334388004
 20
1152.02384627357
 30
0.0
 11
3411.470334388004
 21
1152.02384627357
 31
0.0
  0
ARC
  8
ITEM_50
 10
3411.470334388004
 20
1149.52384627357
 30
0.0
 40
2.5
 50
90.0
 51
180.0
  0
LINE
  8
ITEM_50
 10
2688.970334388004
 20
1148.02384627357
 30
0.0
 11
3408.970334388004
 21
1148.02384627357
 31
0.0
  0
LINE
  8
ITEM_50
 10
3408.970334388004
 20
1148.02384627357
 30
0.0
 11
3408.970334388004
 21
1068.02384627357
 31
0.0
  0
LINE
  8
ITEM_50
 10
3408.970334388004
 20
1068.02384627357
 30
0.0
 11
2688.970334388004
 21
1068.02384627357
 31
0.0
  0
LINE
  8
ITEM_50
 10
2688.970334388004
 20
1068.02384627357
 30
0.0
 11
2688.970334388004
 21
1148.02384627357
 31
0.0
  0
LINE
  8
ITEM_50
 10
2688.970334388004
 20
1132.02384627357
 30
0.0
 11
3408.970334388004
 21
1132.02384627357
 31
0.0
  0
LINE
  8
ITEM_50
 10
3408.970334388004
 20
1124.02384627357
 30
0.0
 11
2688.970334388004
 21
1124.02384627357
 31
0.0
  0
LINE
  8
ITEM_50
 10
2688.970334388004
 20
1084.02384627357
 30
0.0
 11
3408.970334388004
 21
1084.02384627357
 31
0.0
  0
LINE
  8
ITEM_50
 10
3408.970334388004
 20
1092.02384627357
 30
0.0
 11
2688.970334388004
 21
1092.02384627357
 31
0.0
  0
LINE
  8
ITEM_50
 10
3448.970334388004
 20
348.02384627357
 30
0.0
 11
3408.970334388004
 21
348.02384627357
 31
0.0
  0
LINE
  8
ITEM_50
 10
3408.970334388004
 20
348.02384627357
 30
0.0
 11
3408.970334388004
 21
1148.02384627357
 31
0.0
  0
LINE
  8
ITEM_50
 10
3408.970334388004
 20
1148.02384627357
 30
0.0
 11
3448.970334388004
 21
1148.02384627357
 31
0.0
  0
LINE
  8
ITEM_50
 10
3448.970334388004
 20
1148.02384627357
 30
0.0
 11
3448.970334388004
 21
348.02384627357
 31
0.0
  0
LINE
  8
ITEM_50
 10
3432.970334388004
 20
348.02384627357
 30
0.0
 11
3432.970334388004
 21
1148.02384627357
 31
0.0
  0
LINE
  8
ITEM_50
 10
3424.970334388004
 20
1148.02384627357
 30
0.0
 11
3424.970334388004
 21
348.02384627357
 31
0.0
  0
LINE
  8
ITEM_50
 10
2648.970334388004
 20
348.0238462735702
 30
0.0
 11
2688.970334388004
 21
348.0238462735702
 31
0.0
  0
LINE
  8
ITEM_50
 10
2688.970334388004
 20
348.0238462735702
 30
0.0
 11
2688.970334388004
 21
1148.02384627357
 31
0.0
  0
LINE
  8
ITEM_50
 10
2688.970334388004
 20
1148.02384627357
 30
0.0
 11
2648.970334388004
 21
1148.02384627357
 31
0.0
  0
LINE
  8
ITEM_50
 10
2648.970334388004
 20
1148.02384627357
 30
0.0
 11
2648.970334388004
 21
348.0238462735702
 31
0.0
  0
LINE
  8
ITEM_50
 10
2664.970334388004
 20
348.0238462735702
 30
0.0
 11
2664.970334388004
 21
1148.02384627357
 31
0.0
  0
LINE
  8
ITEM_50
 10
2672.970334388004
 20
1148.02384627357
 30
0.0
 11
2672.970334388004
 21
348.0238462735702
 31
0.0
  0
LINE
  8
ITEM_50
 10
2688.970334388004
 20
348.0238462735702
 30
0.0
 11
3408.970334388004
 21
348.0238462735702
 31
0.0
  0
LINE
  8
ITEM_50
 10
3408.970334388004
 20
348.0238462735702
 30
0.0
 11
3408.970334388004
 21
388.0238462735702
 31
0.0
  0
LINE
  8
ITEM_50
 10
3408.970334388004
 20
388.0238462735702
 30
0.0
 11
2688.970334388004
 21
388.0238462735702
 31
0.0
  0
LINE
  8
ITEM_50
 10
2688.970334388004
 20
388.0238462735702
 30
0.0
 11
2688.970334388004
 21
348.0238462735702
 31
0.0
  0
LINE
  8
ITEM_50
 10
2688.970334388004
 20
364.0238462735702
 30
0.0
 11
3408.970334388004
 21
364.0238462735702
 31
0.0
  0
LINE
  8
ITEM_50
 10
3408.970334388004
 20
372.0238462735702
 30
0.0
 11
2688.970334388004
 21
372.0238462735702
 31
0.0
  0
LINE
  8
ITEM_50
 10
2662.470334387968
 20
328.02384627357
 30
0.0
 11
2675.470334387968
 21
328.02384627357
 31
0.0
  0
ARC
  8
ITEM_50
 10
2675.470334387968
 20
322.02384627357
 30
0.0
 40
6.0
 50
0.0
 51
90.0
  0
LINE
  8
ITEM_50
 10
2681.470334387968
 20
322.02384627357
 30
0.0
 11
2681.470334387968
 21
254.0238462735702
 31
0.0
  0
ARC
  8
ITEM_50
 10
2675.470334387968
 20
254.0238462735702
 30
0.0
 40
6.0
 50
270.0
 51
0.0
  0
LINE
  8
ITEM_50
 10
2675.470334387968
 20
248.0238462735702
 30
0.0
 11
2662.470334387968
 21
248.0238462735702
 31
0.0
  0
ARC
  8
ITEM_50
 10
2662.470334387968
 20
254.0238462735702
 30
0.0
 40
6.0
 50
180.0
 51
270.0
  0
LINE
  8
ITEM_50
 10
2656.470334387968
 20
254.0238462735702
 30
0.0
 11
2656.470334387968
 21
322.02384627357
 31
0.0
  0
ARC
  8
ITEM_50
 10
2662.470334387968
 20
322.02384627357
 30
0.0
 40
6.0
 50
90.0
 51
180.0
  0
LINE
  8
ITEM_50
 10
3422.470334387968
 20
328.02384627357
 30
0.0
 11
3435.470334387968
 21
328.02384627357
 31
0.0
  0
ARC
  8
ITEM_50
 10
3435.470334387968
 20
322.02384627357
 30
0.0
 40
6.0
 50
0.0
 51
90.0
  0
LINE
  8
ITEM_50
 10
3441.470334387968
 20
322.02384627357
 30
0.0
 11
3441.470334387968
 21
254.0238462735702
 31
0.0
  0
ARC
  8
ITEM_50
 10
3435.470334387968
 20
254.0238462735702
 30
0.0
 40
6.0
 50
270.0
 51
0.0
  0
LINE
  8
ITEM_50
 10
3435.470334387968
 20
248.0238462735702
 30
0.0
 11
3422.470334387968
 21
248.0238462735702
 31
0.0
  0
ARC
  8
ITEM_50
 10
3422.470334387968
 20
254.0238462735702
 30
0.0
 40
6.0
 50
180.0
 51
270.0
  0
LINE
  8
ITEM_50
 10
3416.470334387968
 20
254.0238462735702
 30
0.0
 11
3416.470334387968
 21
322.02384627357
 31
0.0
  0
ARC
  8
ITEM_50
 10
3422.470334387968
 20
322.02384627357
 30
0.0
 40
6.0
 50
90.0
 51
180.0
  0
LINE
  8
ITEM_50
 10
2035.819508296116
 20
332.5921374292304
 30
0.0
 11
1955.819508296116
 21
332.5921374292304
 31
0.0
  0
LINE
  8
ITEM_50
 10
1955.819508296116
 20
332.5921374292304
 30
0.0
 11
1955.819508296116
 21
1132.59213742923
 31
0.0
  0
LINE
  8
ITEM_50
 10
1955.819508296116
 20
1132.59213742923
 30
0.0
 11
2035.819508296116
 21
1132.59213742923
 31
0.0
  0
LINE
  8
ITEM_50
 10
2035.819508296116
 20
1132.59213742923
 30
0.0
 11
2035.819508296116
 21
332.5921374292304
 31
0.0
  0
LINE
  8
ITEM_50
 10
2019.819508296116
 20
332.5921374292304
 30
0.0
 11
2019.819508296116
 21
1132.59213742923
 31
0.0
  0
LINE
  8
ITEM_50
 10
2011.819508296116
 20
1132.59213742923
 30
0.0
 11
2011.819508296116
 21
332.5921374292304
 31
0.0
  0
LINE
  8
ITEM_50
 10
1971.819508296116
 20
332.5921374292304
 30
0.0
 11
1971.819508296116
 21
1132.59213742923
 31
0.0
  0
LINE
  8
ITEM_50
 10
1979.819508296116
 20
1132.59213742923
 30
0.0
 11
1979.819508296116
 21
332.5921374292304
 31
0.0
  0
ENDSEC
  0
EOF
